  0
SECTION
  2
HEADER
  9
$ACADVER
  1
AC1009
  9
$INSBASE
 10
0.0
 20
0.0
 30
0.0
  9
$EXTMIN
 10
113.4515022772982
 20
64.22990355761614
 30
0.0
  9
$EXTMAX
 10
143.3734591288067
 20
124.3334569482094
 30
0.0
  9
$LIMMIN
 10
0.0
 20
0.0
  9
$LIMMAX
 10
105.0
 20
148.5
  9
$ORTHOMODE
 70
     1
  9
$REGENMODE
 70
     1
  9
$FILLMODE
 70
     1
  9
$QTEXTMODE
 70
     0
  9
$MIRRTEXT
 70
     0
  9
$DRAGMODE
 70
     2
  9
$LTSCALE
 40
0.5
  9
$OSMODE
 70
  2295
  9
$ATTMODE
 70
     2
  9
$TEXTSIZE
 40
1.75
  9
$TRACEWID
 40
0.05
  9
$TEXTSTYLE
  7
STANDARD
  9
$CLAYER
  8
0
  9
$CELTYPE
  6
BYLAYER
  9
$CECOLOR
 62
   256
  9
$DIMSCALE
 40
0.5
  9
$DIMASZ
 40
2.5
  9
$DIMEXO
 40
1.0
  9
$DIMDLI
 40
7.0
  9
$DIMRND
 40
0.0
  9
$DIMDLE
 40
0.0
  9
$DIMEXE
 40
2.0
  9
$DIMTP
 40
0.1
  9
$DIMTM
 40
0.1
  9
$DIMTXT
 40
3.5
  9
$DIMCEN
 40
0.0
  9
$DIMTSZ
 40
0.0
  9
$DIMTOL
 70
     0
  9
$DIMLIM
 70
     0
  9
$DIMTIH
 70
     0
  9
$DIMTOH
 70
     0
  9
$DIMSE1
 70
     0
  9
$DIMSE2
 70
     0
  9
$DIMTAD
 70
     1
  9
$DIMZIN
 70
     0
  9
$DIMBLK
  1

  9
$DIMASO
 70
     1
  9
$DIMSHO
 70
     1
  9
$DIMPOST
  1

  9
$DIMAPOST
  1

  9
$DIMALT
 70
     0
  9
$DIMALTD
 70
     2
  9
$DIMALTF
 40
0.0393701
  9
$DIMLFAC
 40
1.0
  9
$DIMTOFL
 70
     1
  9
$DIMTVP
 40
0.0
  9
$DIMTIX
 70
     0
  9
$DIMSOXD
 70
     0
  9
$DIMSAH
 70
     0
  9
$DIMBLK1
  1

  9
$DIMBLK2
  1

  9
$DIMSTYLE
  2
GEN-ISO
  9
$DIMCLRD
 70
   256
  9
$DIMCLRE
 70
   256
  9
$DIMCLRT
 70
     2
  9
$DIMTFAC
 40
0.71
  9
$DIMGAP
 40
0.6
  9
$LUNITS
 70
     2
  9
$LUPREC
 70
     2
  9
$SKETCHINC
 40
0.1
  9
$FILLETRAD
 40
1.25
  9
$AUNITS
 70
     0
  9
$AUPREC
 70
     0
  9
$MENU
  1

  9
$ELEVATION
 40
0.0
  9
$PELEVATION
 40
0.0
  9
$THICKNESS
 40
0.0
  9
$LIMCHECK
 70
     0
  9
$BLIPMODE
 70
     0
  9
$CHAMFERA
 40
1.25
  9
$CHAMFERB
 40
1.25
  9
$SKPOLY
 70
     0
  9
$TDCREATE
 40
2450183.393700000
  9
$TDUPDATE
 40
2450262.423140509
  9
$TDINDWG
 40
0.2615488426
  9
$TDUSRTIMER
 40
0.2615488426
  9
$USRTIMER
 70
     1
  9
$ANGBASE
 50
0.0
  9
$ANGDIR
 70
     0
  9
$PDMODE
 70
     3
  9
$PDSIZE
 40
0.0
  9
$PLINEWID
 40
0.0
  9
$COORDS
 70
     1
  9
$SPLFRAME
 70
     0
  9
$SPLINETYPE
 70
     6
  9
$SPLINESEGS
 70
     8
  9
$ATTDIA
 70
     1
  9
$ATTREQ
 70
     1
  9
$HANDLING
 70
     1
  9
$HANDSEED
  5
80
  9
$SURFTAB1
 70
     6
  9
$SURFTAB2
 70
     6
  9
$SURFTYPE
 70
     6
  9
$SURFU
 70
     6
  9
$SURFV
 70
     6
  9
$UCSNAME
  2

  9
$UCSORG
 10
0.0
 20
0.0
 30
0.0
  9
$UCSXDIR
 10
1.0
 20
0.0
 30
0.0
  9
$UCSYDIR
 10
0.0
 20
1.0
 30
0.0
  9
$PUCSNAME
  2

  9
$PUCSORG
 10
0.0
 20
0.0
 30
0.0
  9
$PUCSXDIR
 10
1.0
 20
0.0
 30
0.0
  9
$PUCSYDIR
 10
0.0
 20
1.0
 30
0.0
  9
$USERI1
 70
     0
  9
$USERI2
 70
     0
  9
$USERI3
 70
     0
  9
$USERI4
 70
     0
  9
$USERI5
 70
     0
  9
$USERR1
 40
0.0
  9
$USERR2
 40
0.0
  9
$USERR3
 40
0.0
  9
$USERR4
 40
0.0
  9
$USERR5
 40
0.0
  9
$WORLDVIEW
 70
     1
  9
$SHADEDGE
 70
     3
  9
$SHADEDIF
 70
    70
  9
$TILEMODE
 70
     1
  9
$MAXACTVP
 70
    16
  9
$PINSBASE
 10
0.0
 20
0.0
 30
0.0
  9
$PLIMCHECK
 70
     0
  9
$PEXTMIN
 10
1.000000000000000E+20
 20
1.000000000000000E+20
 30
1.000000000000000E+20
  9
$PEXTMAX
 10
-1.000000000000000E+20
 20
-1.000000000000000E+20
 30
-1.000000000000000E+20
  9
$PLIMMIN
 10
0.0
 20
0.0
  9
$PLIMMAX
 10
12.0
 20
9.0
  9
$UNITMODE
 70
     0
  9
$VISRETAIN
 70
     0
  9
$PLINEGEN
 70
     0
  9
$PSLTSCALE
 70
     1
  9
$TREEDEPTH
 70
  3020
  9
$DWGCODEPAGE
  3
dummy
  0
ENDSEC
  0
SECTION
  2
TABLES
  0
TABLE
  2
VPORT
 70
     2
  0
VPORT
  2
*ACTIVE
 70
     0
 10
0.0
 20
0.0
 11
1.0
 21
1.0
 12
171.7840679988325
 22
104.5038526340731
 13
0.0
 23
0.0
 14
0.5
 24
0.5
 15
5.0
 25
5.0
 16
0.0
 26
0.0
 36
1.0
 17
0.0
 27
0.0
 37
0.0
 40
112.5347322665327
 41
1.451162790697674
 42
50.0
 43
0.0
 44
0.0
 50
0.0
 51
0.0
 71
     0
 72
   100
 73
     1
 74
     0
 75
     0
 76
     0
 77
     0
 78
     0
  0
ENDTAB
  0
TABLE
  2
LTYPE
 70
     1
  0
LTYPE
  2
CONTINUOUS
 70
    64
  3
Solid line
 72
    65
 73
     0
 40
0.0
  0
ENDTAB
  0
TABLE
  2
LAYER
 70
     4
  0
LAYER
  2
0
 70
    64
 62
     7
  6
CONTINUOUS
  0
LAYER
  2
0N
 70
    64
 62
     7
  6
CONTINUOUS
  0
LAYER
  2
ITEM_25
 70
    64
 62
     3
  6
CONTINUOUS
  0
LAYER
  2
ITEM_50
 70
    64
 62
     7
  6
CONTINUOUS
  0
ENDTAB
  0
TABLE
  2
STYLE
 70
     1
  0
STYLE
  2
STANDARD
 70
     0
 40
0.0
 41
1.0
 50
0.0
 71
     0
 42
1.75
  3
GENISO.SHX
  4

  0
ENDTAB
  0
TABLE
  2
VIEW
 70
     0
  0
ENDTAB
  0
TABLE
  2
UCS
 70
     0
  0
ENDTAB
  0
TABLE
  2
APPID
 70
    22
  0
APPID
  2
ACAD
 70
    64
  0
APPID
  2
GENIUS_GENODEF_13
 70
    64
  0
APPID
  2
GENIUS_GENOBJ-N-FIL_13
 70
    64
  0
APPID
  2
GEVPT
 70
    64
  0
APPID
  2
GEVIT
 70
    64
  0
APPID
  2
VCC
 70
    64
  0
APPID
  2
GENIUS_GEFPARTINS_13
 70
    64
  0
APPID
  2
GEVID829245653
 70
    64
  0
ENDTAB
  0
TABLE
  2
DIMSTYLE
 70
     1
  0
DIMSTYLE
  2
GEN-ISO
 70
     0
  3

  4

  5

  6

  7

 40
0.5
 41
2.5
 42
1.0
 43
7.0
 44
2.0
 45
0.0
 46
0.0
 47
0.1
 48
0.1
140
3.5
141
0.0
142
0.0
143
0.0393701
144
1.0
145
0.0
146
0.71
147
0.6
 71
     0
 72
     0
 73
     0
 74
     0
 75
     0
 76
     0
 77
     1
 78
     8
170
     0
171
     2
172
     1
173
     0
174
     0
175
     0
176
   256
177
   256
178
     2
  0
ENDTAB
  0
ENDSEC
  0
SECTION
  2
BLOCKS
  0
BLOCK
  8
0
  5
73
  2
*U0
 70
    65
 10
52.19564261772041
 20
117.7825848274894
 30
0.0
  1
*U
  3
*U0
  0
LINE
  8
0N
  5
62
 10
57.39564261772041
 20
122.1138348274894
 30
0.0
 11
57.39564261772041
 21
113.4513348274894
 31
0.0
  0
LINE
  8
0N
  5
64
 10
52.19564261772041
 20
122.1138348274894
 30
0.0
 11
52.19564261772041
 21
113.4513348274894
 31
0.0
  0
ARC
  8
0N
  5
65
 10
55.04423636373471
 20
113.4513348274894
 30
0.0
 40
2.351406253985699
 50
0.0
 51
37.87887949171979
  0
ARC
  8
0N
  5
66
 10
54.54704887170611
 20
113.4513348274894
 30
0.0
 40
2.351406253985695
 50
142.1211205082801
 51
180.0
  0
LINE
  8
0N
  5
67
 10
56.90022594042503
 20
112.0075848274894
 30
0.0
 11
52.69105929501577
 21
112.0075848274894
 31
0.0
  0
ARC
  8
0N
  5
68
 10
54.54704887170611
 20
113.4513348274894
 30
0.0
 40
2.351406253985695
 50
180.0
 51
217.8788794917198
  0
ARC
  8
0N
  5
69
 10
55.04423636373471
 20
113.4513348274894
 30
0.0
 40
2.351406253985699
 50
322.1211205082801
 51
0.0
  0
ARC
  8
0N
  5
6A
 10
54.54704887170611
 20
122.1138348274894
 30
0.0
 40
2.351406253985695
 50
142.1211205082801
 51
179.9999999999999
  0
ARC
  8
0N
  5
6B
 10
55.04423636373471
 20
122.1138348274894
 30
0.0
 40
2.351406253985699
 50
0.0
 51
37.87887949171979
  0
LINE
  8
0N
  5
6C
 10
56.90022594042503
 20
120.6700848274894
 30
0.0
 11
52.69105929501577
 21
120.6700848274894
 31
0.0
  0
LINE
  8
0N
  5
6D
 10
56.90022594042503
 20
114.8950848274894
 30
0.0
 11
52.69105929501577
 21
114.8950848274894
 31
0.0
  0
ARC
  8
0N
  5
6E
 10
54.54704887170611
 20
122.1138348274894
 30
0.0
 40
2.351406253985695
 50
179.9999999999999
 51
217.8788794917198
  0
ARC
  8
0N
  5
6F
 10
60.8581426177204
 20
117.7825848274894
 30
0.0
 40
8.662499999999999
 50
160.5287793655093
 51
199.4712206344907
  0
ARC
  8
0N
  5
70
 10
55.04423636373471
 20
122.1138348274894
 30
0.0
 40
2.351406253985699
 50
322.1211205082802
 51
0.0
  0
ARC
  8
0N
  5
71
 10
48.73314261772041
 20
117.7825848274894
 30
0.0
 40
8.662499999999999
 50
340.5287793655093
 51
19.47122063449065
  0
LINE
  8
0N
  5
72
 10
56.90022594042503
 20
123.5575848274894
 30
0.0
 11
52.69105929501577
 21
123.5575848274894
 31
0.0
  0
ENDBLK
  8
0
  5
74
  0
ENDSEC
  0
SECTION
  2
ENTITIES
  0
ARC
  8
ITEM_50
  5
1D
 10
131.9124807030525
 20
74.40417116248126
 30
0.0
 40
1.0
 50
182.0262353388955
 51
225.5729959992057
1001
GENIUS_GENODEF_13
1002
{
1000
HIER
1070
     0
1002
}
1002
{
1000
MANEDIT
1070
     0
1002
}
1002
{
1000
NOSEL
1070
     0
1002
}
1002
{
1000
BEHIND
1070
     0
1002
}
1002
{
1000
REACTOR
1002
}
1001
GENIUS_GENOBJ-N-FIL_13
1002
{
1000
OWNER
1000
GEN
1002
}
  0
ARC
  8
ITEM_50
  5
2F
 10
124.9124807030527
 20
74.40417116248053
 30
0.0
 40
1.0
 50
314.4270040008114
 51
357.9737646607558
1001
GENIUS_GENODEF_13
1002
{
1000
HIER
1070
     0
1002
}
1002
{
1000
MANEDIT
1070
     0
1002
}
1002
{
1000
NOSEL
1070
     0
1002
}
1002
{
1000
BEHIND
1070
     0
1002
}
1002
{
1000
REACTOR
1002
}
1001
GENIUS_GENOBJ-N-FIL_13
1002
{
1000
OWNER
1000
GEN
1002
}
  0
LINE
  8
ITEM_50
  5
30
 10
114.5411603594924
 20
68.71213660465257
 30
0.0
 11
118.2838010466118
 21
72.45477729177178
 31
0.0
  0
LINE
  8
ITEM_50
  5
31
 10
114.1624807030522
 20
64.3334569482094
 30
0.0
 11
142.6624807030527
 21
64.3334569482094
 31
0.0
  0
LINE
  8
ITEM_25
  5
32
 10
115.0841797777401
 20
67.83345694818847
 30
0.0
 11
141.6007265871412
 21
67.83345694818847
 31
0.0
  0
ARC
  8
ITEM_50
  5
34
 10
116.6624807030522
 20
66.59081626109294
 30
0.0
 40
3.0
 50
135.0
 51
180.0
1001
GENIUS_GENODEF_13
1002
{
1000
HIER
1070
     0
1002
}
1002
{
1000
MANEDIT
1070
     0
1002
}
1002
{
1000
NOSEL
1070
     0
1002
}
1002
{
1000
BEHIND
1070
     0
1002
}
1002
{
1000
REACTOR
1002
}
1001
GENIUS_GENOBJ-N-FIL_13
1002
{
1000
OWNER
1000
GEN
1002
}
  0
ARC
  8
ITEM_50
  5
35
 10
114.1624807030522
 20
64.8334569482094
 30
0.0
 40
0.5
 50
180.0000000000133
 51
269.9999999999998
1001
GENIUS_GENODEF_13
1002
{
1000
HIER
1070
     0
1002
}
1002
{
1000
MANEDIT
1070
     0
1002
}
1002
{
1000
NOSEL
1070
     0
1002
}
1002
{
1000
BEHIND
1070
     0
1002
}
1002
{
1000
REACTOR
1002
}
1001
GENIUS_GENOBJ-N-FIL_13
1002
{
1000
OWNER
1000
GEN
1002
}
  0
LINE
  8
ITEM_50
  5
36
 10
113.6624807030522
 20
64.83345694820929
 30
0.0
 11
113.662480703052
 21
66.59081626109248
 31
0.0
  0
LINE
  8
ITEM_50
  5
37
 10
142.2838010466122
 20
68.71213660465257
 30
0.0
 11
138.5411603594931
 21
72.45477729177178
 31
0.0
  0
LINE
  8
ITEM_50
  5
38
 10
120.4051213901713
 20
73.33345694821206
 30
0.0
 11
132.2124717289734
 21
73.33345694821755
 31
0.0
  0
ARC
  8
ITEM_50
  5
39
 10
120.4051213901713
 20
70.33345694821211
 30
0.0
 40
3.0
 50
90.0
 51
134.9999999999998
1001
GENIUS_GENODEF_13
1002
{
1000
HIER
1070
     0
1002
}
1002
{
1000
MANEDIT
1070
     0
1002
}
1002
{
1000
NOSEL
1070
     0
1002
}
1002
{
1000
BEHIND
1070
     0
1002
}
1002
{
1000
REACTOR
1002
}
1001
GENIUS_GENOBJ-N-FIL_13
1002
{
1000
OWNER
1000
GEN
1002
}
  0
ARC
  8
ITEM_50
  5
3A
 10
128.4124807030529
 20
70.83345694820939
 30
0.0
 40
4.0
 50
134.4270040008094
 51
141.3178125464191
  0
LINE
  8
ITEM_50
  5
3B
 10
132.2124807030524
 20
73.33345694821209
 30
0.0
 11
136.4198400159334
 21
73.33345694821211
 31
0.0
  0
ARC
  8
ITEM_50
  5
3C
 10
128.4124807030529
 20
70.83345694820939
 30
0.0
 40
4.0
 50
38.68218745363368
 51
45.57299599920057
  0
ARC
  8
ITEM_50
  5
3D
 10
136.4198400159334
 20
70.33345694821211
 30
0.0
 40
3.0
 50
45.0000000000002
 51
90.0
1001
GENIUS_GENODEF_13
1002
{
1000
HIER
1070
     0
1002
}
1002
{
1000
MANEDIT
1070
     0
1002
}
1002
{
1000
NOSEL
1070
     0
1002
}
1002
{
1000
BEHIND
1070
     0
1002
}
1002
{
1000
REACTOR
1002
}
1001
GENIUS_GENOBJ-N-FIL_13
1002
{
1000
OWNER
1000
GEN
1002
}
  0
ARC
  8
ITEM_50
  5
3E
 10
140.1624807030527
 20
66.59081626109294
 30
0.0
 40
3.0
 50
0.0
 51
45.0
1001
GENIUS_GENODEF_13
1002
{
1000
HIER
1070
     0
1002
}
1002
{
1000
MANEDIT
1070
     0
1002
}
1002
{
1000
NOSEL
1070
     0
1002
}
1002
{
1000
BEHIND
1070
     0
1002
}
1002
{
1000
REACTOR
1002
}
1001
GENIUS_GENOBJ-N-FIL_13
1002
{
1000
OWNER
1000
GEN
1002
}
  0
LINE
  8
ITEM_50
  5
3F
 10
143.1624807030527
 20
64.83345694820934
 30
0.0
 11
143.1624807030529
 21
66.59081626109294
 31
0.0
  0
ARC
  8
ITEM_50
  5
40
 10
142.6624807030527
 20
64.8334569482094
 30
0.0
 40
0.5
 50
270.0000000000001
 51
359.9999999999933
1001
GENIUS_GENODEF_13
1002
{
1000
HIER
1070
     0
1002
}
1002
{
1000
MANEDIT
1070
     0
1002
}
1002
{
1000
NOSEL
1070
     0
1002
}
1002
{
1000
BEHIND
1070
     0
1002
}
1002
{
1000
REACTOR
1002
}
1001
GENIUS_GENOBJ-N-FIL_13
1002
{
1000
OWNER
1000
GEN
1002
}
  0
LINE
  8
ITEM_25
  5
41
 10
130.7990457030525
 20
124.3334569482094
 30
0.0
 11
130.7990457030525
 21
117.913455985152
 31
0.0
  0
LINE
  8
ITEM_50
  5
42
 10
131.4124807030524
 20
117.913455985152
 30
0.0
 11
131.4124807030524
 21
123.7200219482094
 31
0.0
  0
LINE
  8
ITEM_25
  5
43
 10
126.0259157030524
 20
124.3334569482094
 30
0.0
 11
126.0259157030524
 21
117.913455985152
 31
0.0
  0
LINE
  8
ITEM_50
  5
44
 10
125.4124807030524
 20
117.913455985152
 30
0.0
 11
125.4124807030524
 21
123.7200219482094
 31
0.0
  0
LINE
  8
ITEM_50
  5
45
 10
131.4124807030524
 20
79.33345694820939
 30
0.0
 11
131.4124807030524
 21
112.713455985152
 31
0.0
  0
LINE
  8
ITEM_25
  5
46
 10
130.7990457030525
 20
112.713455985152
 30
0.0
 11
130.7990457030525
 21
81.83345694820937
 31
0.0
  0
LINE
  8
ITEM_50
  5
47
 10
125.4124807030524
 20
79.33345694820939
 30
0.0
 11
125.4124807030524
 21
112.713455985152
 31
0.0
  0
LINE
  8
ITEM_25
  5
48
 10
126.0259157030524
 20
112.713455985152
 30
0.0
 11
126.0259157030524
 21
81.83345694820939
 31
0.0
  0
LINE
  8
ITEM_50
  5
49
 10
131.4124807030524
 20
81.83345694820935
 30
0.0
 11
125.4124807030522
 21
81.83345694820939
 31
0.0
  0
ARC
  8
ITEM_50
  5
4A
 10
128.412480039325
 20
83.9959569482094
 30
0.0
 40
8.662499999999999
 50
250.5287793655093
 51
289.4712206344907
  0
ARC
  8
ITEM_50
  5
4B
 10
128.4124807030524
 20
70.67095694820941
 30
0.0
 40
8.662499999999999
 50
70.52877936550931
 51
109.4712206344907
  0
LINE
  8
ITEM_50
  5
4C
 10
132.7437307030524
 20
79.3334569482094
 30
0.0
 11
124.0812307030525
 21
79.3334569482094
 31
0.0
  0
LINE
  8
ITEM_50
  5
4D
 10
132.743730039325
 20
75.3334569482094
 30
0.0
 11
124.0812300393251
 21
75.3334569482094
 31
0.0
  0
LINE
  8
ITEM_25
  5
4E
 10
126.4087794218002
 20
74.83345694821576
 30
0.0
 11
130.3801500041312
 21
74.83345694821576
 31
0.0
  0
LINE
  8
ITEM_25
  5
4F
 10
126.4358861826289
 20
74.40417116248065
 30
0.0
 11
130.3530402740001
 21
74.40417116248065
 31
0.0
  0
LINE
  8
ITEM_25
  5
50
 10
126.0259157030522
 20
81.833456948203
 30
0.0
 11
125.4124807030524
 21
79.33345694820939
 31
0.0
  0
ARC
  8
ITEM_50
  5
51
 10
124.0812307030525
 20
76.98205069422371
 30
0.0
 40
2.351406253985696
 50
52.12112050828018
 51
90.0
  0
ARC
  8
ITEM_50
  5
52
 10
124.0812300393251
 20
77.68486320219508
 30
0.0
 40
2.351406253985697
 50
270.0
 51
307.8788794917198
  0
LINE
  8
ITEM_50
  5
53
 10
122.6374800393249
 20
75.82887362550477
 30
0.0
 11
122.6374800393252
 21
78.83803975460899
 31
0.0
  0
ARC
  8
ITEM_50
  5
54
 10
124.0812300393251
 20
77.68486320219508
 30
0.0
 40
2.351406253985697
 50
232.1211205082801
 51
270.0
  0
ARC
  8
ITEM_50
  5
55
 10
124.0812307030525
 20
76.98205069422375
 30
0.0
 40
2.351406253985696
 50
90.0
 51
127.8788794917198
  0
LINE
  8
ITEM_50
  5
56
 10
125.524980039325
 20
75.82887362550477
 30
0.0
 11
125.524980039325
 21
78.83804078721874
 31
0.0
  0
ARC
  8
ITEM_50
  5
57
 10
124.9124807030522
 20
74.33345694820937
 30
0.0
 40
1.0
 50
2.026235338506864
 51
90.0
1001
GENIUS_GENODEF_13
1002
{
1000
HIER
1070
     0
1002
}
1002
{
1000
MANEDIT
1070
     0
1002
}
1002
{
1000
NOSEL
1070
     0
1002
}
1002
{
1000
BEHIND
1070
     0
1002
}
1002
{
1000
REACTOR
1002
}
1001
GENIUS_GENOBJ-N-FIL_13
1002
{
1000
OWNER
1000
GEN
1002
}
  0
ARC
  8
ITEM_50
  5
58
 10
132.743730039325
 20
77.68486320219508
 30
0.0
 40
2.351406253985697
 50
270.0
 51
307.8788794917198
  0
ARC
  8
ITEM_50
  5
59
 10
132.7437307030524
 20
76.98205069422371
 30
0.0
 40
2.351406253985696
 50
52.12112050828016
 51
90.0
  0
LINE
  8
ITEM_25
  5
5A
 10
130.7990457030525
 20
81.833456948203
 30
0.0
 11
131.4124807030524
 21
79.33345694820939
 31
0.0
  0
LINE
  8
ITEM_50
  5
5B
 10
131.2999800393251
 20
75.82887362550477
 30
0.0
 11
131.2999800393251
 21
78.83803975460896
 31
0.0
  0
ARC
  8
ITEM_50
  5
5C
 10
132.743730039325
 20
77.68486320219508
 30
0.0
 40
2.351406253985697
 50
232.1211205082801
 51
270.0
  0
ARC
  8
ITEM_50
  5
5D
 10
131.9124807030525
 20
74.3334569482094
 30
0.0
 40
1.0
 50
90.0
 51
177.9737646611045
1001
GENIUS_GENODEF_13
1002
{
1000
HIER
1070
     0
1002
}
1002
{
1000
MANEDIT
1070
     0
1002
}
1002
{
1000
NOSEL
1070
     0
1002
}
1002
{
1000
BEHIND
1070
     0
1002
}
1002
{
1000
REACTOR
1002
}
1001
GENIUS_GENOBJ-N-FIL_13
1002
{
1000
OWNER
1000
GEN
1002
}
  0
ARC
  8
ITEM_50
  5
5E
 10
132.7437307030524
 20
76.98205069422371
 30
0.0
 40
2.351406253985696
 50
90.0
 51
127.8788794917198
  0
LINE
  8
ITEM_50
  5
5F
 10
134.1874800393251
 20
75.82887362550477
 30
0.0
 11
134.1874800393251
 21
78.83804078721857
 31
0.0
  0
INSERT
  8
ITEM_50
  5
60
  2
*U0
 10
128.4124807030524
 20
117.913455985152
 30
0.0
 50
270.0
1001
GEVPT
1002
{
1000
-V$PV_GENSYSTEM"GEF\VAL\DI\0601\DI0842_V.DXF"
1000
-GPGEF_FLIPY=1
1000
-GPGEF_FLIPX=1
1000
-GPGEF_SNK_ADD=0
1000
-GPGEF_OANG=70
1000
-GPGEF_STANG=210
1000
-GPGEF_CDIST=3.5
1000
-GPVCC_TABLE=D:\GENIUS\gef\val\di\0601\di0842.val
1000
-GPTABLE=D:\GENIUS\gef\val\di\0601\di0842.val
1000
-GPNND=6
1000
-GPPRE=M
1002
}
1001
GEVID829245653
1002
{
1002
}
1001
GENIUS_GEFPARTINS_13
1002
{
1011
128.4124807030524
1021
117.913455985152
1031
0.0
1013
-0.0000000000000002
1023
-1.0
1033
0.0
1002
}
1001
VCC
1002
{
1000
-ID3
1000
-IE3
1000
-IK3
1000
-V$PV_GENSYSTEM"GEF\VAL\DI\0601\DI0842_V.DXF"
1002
}
1001
GEVIT
1002
{
1000
-BEHI3.00000001
1000
-BVCCT0
1000
-GRP0?
1000
-BAML2
1000
-BASK1
1000
-NT1
1000
-DOC
1005
0
1000
-MYREF
1005
0
1002
}
  0
LINE
  8
ITEM_50
  5
7A
 10
126.0259157030524
 20
124.3334569482094
 30
0.0
 11
130.7990457030525
 21
124.3334569482094
 31
0.0
  0
LINE
  8
ITEM_50
  5
7B
 10
125.4124807030524
 20
123.7200219482094
 30
0.0
 11
131.4124807030524
 21
123.7200219482094
 31
0.0
  0
LINE
  8
ITEM_50
  5
7C
 10
125.4124807030524
 20
123.7200219482094
 30
0.0
 11
126.0259157030524
 21
124.3334569482094
 31
0.0
  0
LINE
  8
ITEM_50
  5
7D
 10
131.4124807030524
 20
123.7200219482094
 30
0.0
 11
130.7990457030525
 21
124.3334569482094
 31
0.0
  0
ENDSEC
  0
EOF
